Acoustic Guitar  and Mandolin Teacher in Buckinghamshire

Ian Entwistle

#----------------------------------PLEASE NOTE---------------------------------#

#This file is the author's own work and represents their interpretation of the #

#song. You may only use this file for private study, scholarship, or research. #

#------------------------------------------------------------------------------#

WHY WORRY (DIRE STRAITS - 1986 AUSTRALIA LIVE)

Transcribed by Ian Entwistle

Level: Advanced

Written by Mark Knopfler/Dire Straits

 

D/F#

x x 4 2 3 2 A7

x 0 2 0 2 0 A7add6

x 0 2 0 2 2 A7(type 2)

x 0 2 0 2 3

D5

x x 0 2 3 5 G/D

x x 0 7 8 7 E7

0 x 0 4 5 4 A

x 0 2 2 2 0

D/A

x 0 4 2 3 x Emadd4/A

x 0 5 2 5 x D

x x 0 2 3 2 G

3 2 0 0 0 3

Bm/F#

x x 4 4 3 x A/E

x 7 7 6 x x Bm/F#V

x 9 9 7 x x A7V

x 0 x 6 8 x

E7(type 2)

0 2 0 1 0 0 G5

3 x 0 0 3 3

 

Gtr I (E A D G B E) - 'Capo 0'

 

 Q=90

 D/F#              A7  A7adA7(type 2)D/F#              A7  A7adA7(type 2)

4/4

 Gtr I

  Q  E E E E E E   E E E E E E E E   E E E E E E E E   E E E E E E E E

|-^2------2-------|-----0-2-3-3-3-2-|-------2---------|-----0-2-3-3-3-2-|

|-^3--3-----3-----|-----2-2-2-2-2-2-|-----3---3-------|-----2-2-2-2-2-2-|

|-^2----2-----2---|-----0-----------|---2-------2---2-|-----0-----------|

|-^4------------4-|---2-----2-------|-4-----------4---|---2-----2-------|

|-----------------|-0---------------|-----------------|-0---------------|

|-----------------|-----------------|-----------------|-----------------|

 

 D5                G/D     E7        A       D/A       Emadd4/A

4/4

 E E E E E E E E   E E E E E E E E   E E E E E E E E   E E E E H

|-------5---------|-------5-7-4-0---|-----------------|--------------|

|-----3---3---7-5-|-----8---------3-|-2-------3-------|-5-------5----|

|---2-------2-----|-7---------------|---2-------2-----|---2----------|

|-0-----------0---|---0-------------|-----2-------4---|-----5--------|

|-----------------|-----------------|-0-----0-0-----0-|-0-----0-0----|

|-----------------|-----------------|-----------------|--------------|

 

 D/F#              A7  A7adA7(type 2)D/F#              A7  A7adA7(type 2)

  Q  E E E E E E   E E E E E E E E   E E E E E E E E   E E E E E E E E

|-^2------2-------|-----0-2-3-3-3-2-|-------2---------|-----0-2-3-3-3-2--|

|-^3--3-----3-----|-----2-2-2-2-2-2-|-----3---3-------|-----2-2-2-2-2-2--|

|-^2----2-----2---|-----0-----------|---2-------2---2-|-----0------------|

|-^4------------4-|---2-----2---2---|-4-----------4---|---2-----2---2----|

|-----------------|-0---------------|-----------------|-0----------------|

|-----------------|-----------------|-----------------|------------------|

 

 D5                G/D     E7        A       D/A       Emadd4/A

 E E E E E E E E   E E E E E E E E   E E E E E E E E   E E E E H

|-------5---------|-------5-7-3-0---|-----------------|--------------|

|-----3---3---7-5-|-----8---------3-|-2-------3-------|-5-------5----|

|---2-------2-----|-7---------------|---2-------2-----|---2----------|

|-0-----------0---|---0-------------|-----2-------4---|-----5--------|

|-----------------|-----------------|-0-----0-0-----0-|-0-----0-0----|

|-----------------|-----------------|-----------------|--------------|

Buy Now (£5.00)

Why Worry (Mark Knopfler) guitar tab

The four files are provided in a zipped format.

1. A tab html file.

2. A tab doc file.

3. A .ptb powertab midi file - Powertab software can be downloaded from the introductory Guitar Tab page.

4. A .pdf file which is read in Adobe reader software and shows both tab, notation and the lyrics.

 

Please click on the orange button 'Buy Now' Paypal link alongside & on completion of payment in GB Pound Sterling (£), you will be given an automated download instruction. For more than one song just continue clicking the 'Buy Now' buttons and they are added to the Cart before final purchase.

View Cart Why Worry websample