Acoustic Guitar  and Mandolin Teacher in Buckinghamshire

Ian Entwistle

Buy Now (£5.00)

#----------------------------------PLEASE NOTE---------------------------------#

#This file is the author's own work and represents their interpretation of the #

#song. You may only use this file for private study, scholarship, or research. #

#------------------------------------------------------------------------------#

WHEN YOU SAY NOTHING AT ALL

As recorded by Ronan Keating

Transcribed by Ian Entwistle Words and Music by Paul Overstreet and Don Schlitz

 

G

3 x x 0 0 3 Cadd9

x 3 2 0 3 3 D

x x 0 2 3 2 C

x 3 2 0 1 0

G5

3 x 0 0 3 3 G5/E

x x 2 0 3 x D/F#

x x 4 2 3 2 Dsus2

x x 0 2 3 0

E

0 x x 1 0 0 Badd4/F#

x x 4 4 4 0 A/E

x x 2 2 2 0 Em

0 x x 0 0 0

Bm

x 2 x 4 3 2

 

Gtr I (E A D G B E) - 'Guitar'

 Q=80

 G5      D         Cadd9   D         G5      D         Cadd9   D

 Gtr I

 E E E E E E E E   E E E E E E E E   E E E E E E E E   E E E E E E E E

|-----3-------2-3-|-------------2-3-|-----3-------2-3-|-------------2-3-|

|-----------------|-----3-----------|-----------------|-----3-----------|

|---0---0---2-----|---0---0---2-----|---0---0---2-----|---0---0---2-----|

|---------0-------|---------0-------|---------0-------|---------0-------|

|-----------------|-3---------------|-----------------|-3---------------|

|-3---------------|-----------------|-3---------------|-----------------|

 

 G5      D         Cadd9   D         G5      D         Cadd9   D

 E E E E E E E E   E E E E E E E E   E E E E E E E E   E E E E E E E E

|-------------2-3-|-----------------|-----3-------2-3-|-------------2-3-|

|-----3-----------|-----3-------3---|-----------------|-----3-----------|

|---0---0---2-----|---0---0---2---2-|---0---0---2-----|---0---0---2-----|

|---------0-------|---------0-------|---------0-------|---------0-------|

|-----------------|-3---------------|-----------------|-3---------------|

|-3---------------|-----------------|-3---------------|-----------------|

 

 G5      D         Cadd9   D         G5      D         Cadd9   D

 E E E E E E E E   E E E E E E E E   E E E E E E E E   E E E E E E E E

|-------------2-3-|-----------------|-----3-------2-3-|-------------2-3-|

|-----3-----------|-----3-------3---|-----------------|-----3-----------|

|---0---0---2-----|---0---0---2---2-|---0---0---2-----|---0---0---2-----|

|---------0-------|---------0-------|---------0-------|---------0-------|

|-----------------|-3---------------|-----------------|-3---------------|

|-3---------------|-----------------|-3---------------|-----------------|

 

 C                D                G5      D         C

                                                    2/4

 E E E E E E Q    E E E E E E Q    E E E E E E E E   E E E E

|-------0--------|-------2--------|-----3-------2---|-----0------|

|-----1-----1----|-----3---3------|-----3-------3---|-----1------|

|---0---------0--|---2-------2----|---0---0---2---2-|---0---0----|

|----------------|-0-----------0--|---------0-------|------------|

|-3-------3------|----------------|-----------------|-3----------|

|----------------|----------------|-3---------------|------------|

When You Say Nothing At All (Ronan Keating) guitar tab

The four files are provided in a zipped format.

1. A tab html file.

2. A tab doc file.

3. A .ptb powertab midi file - Powertab software can be downloaded from the introductory Guitar Tab page.

4. A .pdf file which is read in Adobe reader software and shows both tab, notation and the lyrics.

 

Please click on the orange button 'Buy Now' Paypal link alongside & on completion of payment in GB Pound Sterling (£), you will be given an automated download instruction. For more than one song just continue clicking the 'Buy Now' buttons and they are added to the Cart before final purchase.

View Cart When You Say Nothing At All websample