Acoustic Guitar  and Mandolin Teacher in Buckinghamshire

Ian Entwistle

Buy Now (£5.00)

#----------------------------------PLEASE NOTE---------------------------------#

#This file is the author's own work and represents their interpretation of the #

#song. You may only use this file for private study, scholarship, or research. #

#------------------------------------------------------------------------------#

VINCENT (FROM 1972 BBC LIVE RECORDING)

Transcribed by Ian Entwistle

Level: Advanced

Written by Don Mclean

 

G

3 2 0 0 0 3Gadd4

3 2 0 0 1 3Am

x 0 2 2 1 0Asus2

x 0 2 2 0 0

C

x 3 2 0 1 0Cmaj7

x 3 2 0 0 0D7sus2

x x 0 2 1 0D7

x x 0 2 1 2

G/F#

2 x 0 0 0 3Em

0 2 2 0 0 0A7

x 0 2 0 2 0Am7

x 0 2 0 1 0

Gmaj7

3 2 0 0 0 2G6

3 2 0 0 0 0Gadd6

3 2 0 0 3 0Cm

x 3 5 5 4 3

GIII

3 5 5 4 3 3F

1 3 3 2 1 xE7

0 2 0 1 0 0

 

Gtr I (E A D G B E) - 'Untitled'

 

 

 Q=85

                G       Gadd4     G                 Am      Asus2

4/4

 Gtr I

 H    E E E E   E E E E E E E E   E E E E E E E E   E E E E E E E E

|--------------|-------3-------3-|-------3---------|-----------------|

|--------------|-0-------1-------|-0-------0-------|-------1-------0-|

|----------0-2-|-----0-------0---|-----0-----2-0---|-----2-------2---|

|------0-2-----|---0-------0-----|---0-----------2-|---2-------2-----|

|--------------|-----------------|-----------------|-0-------0-------|

|--------------|-3-------3-------|-3-------3-------|-----------------|

 

 

 Am          Asus2     C       Cmaj7     D7sus2  D7        G

 S  S  E E E E E E E   E E E E E E E E   E E E E E E E E   E E E E E E E E

|---------0-----------|-----------------|-------0-2-------|-----------------|

|-0h=1--------------0-|-------1-------0-|-----1-------1---|-----0-----------|

|-------2---2-----2---|-----0-------0---|---2-------2---2-|---0---0-----0-2-|

|---------------2-----|---2-------2-----|-0-------0-------|---------0-2-----|

|-0-(0)-------0-------|-3-------3-------|-----------------|-----------------|

|---------------------|-----------------|-----------------|-3---------------|

 

 

 G       Gadd4     G6      Gadd6

 E E E E E E E E   E E E E E S S E E

|-------3-------3-|-------0-----------|

|-0-------1-------|-0-------3-1p0-----|

|-----0-------0---|-----0---------2-0-|

|---0-------0-----|---0---------------|

|-----------------|-------------------|

|-3-------3-------|-3-------3---------|

Vincent (Don Mclean) guitar tab

The four files are provided in a zipped format.

1. A tab html file.

2. A tab doc file.

3. A .ptb powertab midi file - Powertab software can be downloaded from the introductory Guitar Tab page.

4. A .pdf file which is read in Adobe reader software and shows both tab, notation and the lyrics.

 

Please click on the orange button 'Buy Now' Paypal link alongside & on completion of payment in GB Pound Sterling (£), you will be given an automated download instruction. For more than one song just continue clicking the 'Buy Now' buttons and they are added to the Cart before final purchase.

View Cart Vincent sample