Acoustic Guitar  and Mandolin Teacher in Buckinghamshire

Ian Entwistle

#----------------------------------PLEASE NOTE---------------------------------#

#This file is the author's own work and represents their interpretation of the #

#song. You may only use this file for private study, scholarship, or research. #

#------------------------------------------------------------------------------#

LET IT BE (PAUL MCCARTNEY)

Transcribed by Ian Entwistle

 

 

Level: Intermediate

 

 

Written by Paul McCartney

 

 

G

3 2 0 0 0 3

D

x x 0 2 3 2

C

x 3 2 0 1 0

Em

0 2 2 0 0 0

Bm7/A

x 0 0 2 0 x

F

1 x 3 2 1 x

Cmaj7/E

0 3 2 0 0 x

Dadd11

x 5 4 0 3 x

C6/G

3 3 x 2 1 0

 

Gtr I (E A D G B E) - 'Guitar'

 

 Q=130

 G             D             Em               C

4/4

 Gtr I

 Q  Q  Q  Q    Q  Q  Q  Q    Q  Q  E  E  Q    Q  Q  Q  Q

|-3-----3-----|-2-----2-----|-0-----0-(0)-0--|-0-----0-----|

|-0-----0-----|-3-----3-----|-0-----0-(0)-0--|-1-----1-----|

|----0-----0--|----2-----2--|----0-----------|----0-----0--|

|-------------|-0-----0-----|-------0h=2--0--|-------------|

|-------------|-------------|----------------|-3-----3-----|

|-3-----3-----|-------------|-0--------------|-------------|

 

 

 G             D             C                     G

4/4

 Q  Q  Q  Q    Q  Q  Q  Q    E  E   E   E  Q  Q    Q   H.

|-3-----3-----|-2-----2-----|------------0-----0--|-3--(3)----|

|-0-----0-----|-3-----3-----|--------1---------1--|-0--(0)----|

|----0-----0--|----2-----2--|----0-------------0--|-----0-----|

|-------------|-0-----0-----|---------------------|-----------|

|-------------|-------------|-3-(3)-(3)-(3)-2--0--|-----------|

|-3-----3-----|-------------|---------------------|-3--(3)----|

 

 

 G             D             Em            C

4/4

 Q  Q  Q  Q    Q  Q  Q  Q    Q  Q  Q  Q    Q  Q  Q  Q

|-3-----3-----|-2-----2-----|-0-----0--0--|-0-----0-----|

|-0-----0-----|-3-----3-----|-0-----0--0--|-1-----1-----|

|----0-----0--|----2-----2--|----0--------|----0-----0--|

|-------------|-0-----0-----|-------2--0--|-------------|

|-------------|-------------|-------------|-3-----3-----|

|-3-----3-----|-------------|-0-----------|-------------|

 

 

 G             D             C             G

4/4

 Q  Q  Q  Q    Q  Q  Q  Q    Q  Q  Q  Q    Q  Q  Q  Q

|-3-----3-----|-2-----2-----|-0-----0--0--|-3-----3-----|

|-0-----0-----|-3-----3-----|-1-----1--1--|-0-----0-----|

|----0-----0--|----2-----2--|----0--------|----0-----0--|

|-------------|-0-----0-----|-------------|-------------|

|-------------|-------------|-3-----2--0--|-------------|

|-3-----3-----|-------------|-------------|-3-----3-----|

 

 

 G             D             Em            C

4/4

 Q  Q  Q  Q    Q  Q  Q  Q    Q  Q  Q  Q    Q  Q  Q  Q

|-3-----3-----|-2-----2-----|-0-----0--0--|-0-----0-----|

|-0-----0-----|-3-----3-----|-0-----0--0--|-1-----1-----|

|----0-----0--|----2-----2--|----0--------|----0-----0--|

|-------------|-0-----0-----|-------2--0--|-------------|

|-------------|-------------|-------------|-3-----3-----|

|-3-----3-----|-------------|-0-----------|-------------|

 

 

 G             D             C             G

4/4

 Q  Q  Q  Q    Q  Q  Q  Q    Q  Q  Q  Q    Q  Q  Q  Q

|-3-----3-----|-2-----2-----|-0-----0--0--|-3-----3-----|

|-0-----0-----|-3-----3-----|-1-----1--1--|-0-----0-----|

|----0-----0--|----2-----2--|----0--------|----0-----0--|

|-------------|-0-----0-----|-------------|-------------|

|-------------|-------------|-3-----2--0--|-------------|

|-3-----3-----|-------------|-------------|-3-----2-----|

Buy Now (£5.00)

Let IT Be (Paul McCartney/The Beatles) guitar tab

The four files are provided in a zipped format.

1. A tab html file.

2. A tab doc file.

3. A .ptb powertab midi file - Powertab software can be downloaded from the introductory Guitar Tab page.

4. A .pdf file which is read in Adobe reader software and shows both tab, notation and the lyrics.

 

Please click on the orange button 'Buy Now' Paypal link alongside & on completion of payment in GB Pound Sterling (£), you will be given an automated download instruction. For more than one song just continue clicking the 'Buy Now' buttons and they are added to the Cart before final purchase.

View Cart Let It Be websample