Acoustic Guitar  and Mandolin Teacher in Buckinghamshire

Ian Entwistle

 

#----------------------------------PLEASE NOTE---------------------------------#

#This file is the author's own work and represents their interpretation of the #

#song. You may only use this file for private study, scholarship, or research. #

#------------------------------------------------------------------------------#

LAY ME DOWN

As recorded by Crosby & Nash

(From the 2004 Album CROSBY & NASH)

 

Transcribed by Ian Entwistle

 

Words and Music by James Raymond

 

 

D5

0 0 0 2 0 0

C6sus2/D

0 x 0 5 5 7

G/D

0 x 0 4 5 5

Gmadd11/D

0 x 0 3 3 5

Dm

0 5 0 x 0 3

Am7/C

0 3 0 0 0 2

G

5 x 0 4 5 0

Dm7/F

3 x 3 2 3 0

Bbsus2

x 1 3 3 3 3

D5/F

3 x 0 2 0 0

Amadd11

x 0 2 2 3 0

Gsus2

5 x 0 0 0 x

Gsus4

5 x 0 0 3 5

G(type 2)

5 x 0 0 2 5

Gsus2/F

3 x 0 0 0 0

F/A

x 0 3 2 3 x

Asus2

x 0 2 2 2 x

C

x 3 2 0 3 x

Dm(type 2)

0 0 0 2 0 3

Dsus2add11/F

3 x 0 0 0 2

Dsus2/F#

4 x 2 2 0 0

Bbadd2

x 1 3 3 3 0

 

Gtr I (D A D G A D) - 'Untitled'

 

 Q=140

 D5             D5             D5             D5

4/4

 Gtr I

 Q  E Q  E Q    Q  E Q  E Q    Q  E Q  E Q    Q  E Q  E Q

|-0-------0----|-0-------0----|-0-------0----|-0-------0----|

|--------------|--------------|--------------|--------------|

|------2-------|------2-------|------2-------|------2-------|

|----0------0--|----0------0--|----0------0--|----0------0--|

|--------------|--------------|--------------|--------------|

|-0------------|-0------------|-0------------|-0------------|

 

 

 C6sus2/D        G/D             Gmadd11/D       Dm     Am7/C

 Q  E E E Q.     Q  E E E Q.     Q  E E E Q.     Q.   E E Q.

|-7--------7----|-5--------5----|-5--------5----|-3----3s2-------|

|------5--------|------5--------|------3--------|----------------|

|----5----------|----4----------|----3----------|----------0-----|

|--------0------|-0------0------|-0------0------|----------------|

|---------------|---------------|---------------|-5------3-------|

|-0-------------|---------------|---------------|----------------|

 

 

 G              Dm7/F          Bbsus2         Bbsus2

 Q  E Q  E Q    Q  E Q  E Q    Q  E Q  E Q    Q  E Q  E Q

|--------------|---------0----|---------3----|---------3-----|

|-5-------5----|-3----3-------|-3----3-------|-3----3--------|

|------4-------|--------------|--------------|---------------|

|----0------0--|----3------3--|----3------3--|----3------3---|

|--------------|--------------|-1------------|-1-------------|

|-5------------|-3------------|--------------|---------------|

 

 

 C6sus2/D        G/D             Gmadd11/D       Dm     Am7/C

 Q  E E E Q.     Q  E E E Q.     Q  E E E Q.     Q.   E E Q.

|----------7----|-5--------5----|-5--------5----|-3----3s2-------|

|------5--------|------5--------|------3--------|----------------|

|----5----------|----4----------|----3----------|----------0-----|

|--------0------|-0------0------|-0------0------|----------------|

|---------------|---------------|---------------|-5------3-------|

|-0-------------|---------------|---------------|----------------|

 

 

 G              Dm7/F          Bbsus2         D5

 Q  E Q  E Q    Q  E Q  E Q    Q  E Q  E Q    Q  E Q  E Q

|--------------|---------0----|---------3----|-0-------0-----|

|-5-------5----|-3----3-------|-3----3-------|---------------|

|------4-------|--------------|--------------|------2--------|

|----0------0--|----3------3--|----3------3--|----0------0---|

|--------------|--------------|-1------------|---------------|

|-5------------|-3------------|--------------|-0-------------|

Buy Now (£5.00)

Lay Me Down (Cosby Stills) guitar tab/DVD

Guitar Tab. There are four files provided in a zipped format.

 

1. A tab html file.

2. A tab doc file.

3. A .ptb powertab midi file - Powertab software can be downloaded from the introductory Guitar Tab page.

4. A .pdf file which is read in Adobe reader software and shows both tab, notation and the lyrics.

 

Please click on the orange button 'Buy Now' Paypal link alongside & on completion of payment in GB Pound Sterling (£), you will be given an automated download instruction. For more than one song just continue clicking the 'Buy Now' buttons and they are added to the Cart before final purchase.

View Cart Lay Me Down Websample

Lay Me Down is a song written by James Raymond and appears on a Crosby Nash 2004 album. Two purchase options are available.

 

One is just the guitar tab & notation. The other is a DVD with guitar tab etc. The two options are shown below.

DVD. There are two files provided.

1. The DVD as an ISO file. The file is playable as a DVD on the computer after clicking to mount it.

2. A pdf of the guitar tab and notation

 

The DVD instruction shows in detail how to fingerpick the song. A pdf is included of the tab and notation so no need to purchase the tab above unless you want the midi file as well. The download takes about one half hour via standard broadband. After purchase you will receive a download email instruction. This may not be immediate depending on how busy the server is. The download link provided must only be clicked once....further clicking only multipies the number of downloaded files and the process then takes even longer! 

 

If you want a hard copy of the DVD through the post click the appropriate link alongside - just ask if you also want the download for free as its better quality on the computer.

DVD download (£20.00) DVD by post (£23.50)