Acoustic Guitar  and Mandolin Teacher in Buckinghamshire

Ian Entwistle

#----------------------------------PLEASE NOTE---------------------------------#

#This file is the author's own work and represents their interpretation of the #

#song. You may only use this file for private study, scholarship, or research. #

#------------------------------------------------------------------------------#

IF YOU COULD READ MY MIND LOVE

transcribed by Ian Entwistle

Level: Advanced

Written by Gordon Lightfoot

 

G

3 2 0 0 0 3Gadd9

3 x 0 2 0 3Bm7/F

1 x 0 2 0 xC

x 3 2 0 1 0

D

x x 0 2 3 2Em7

0 2 0 0 0 0Am7

x 0 2 0 1 0D7

x x 0 2 1 2

 

Gtr I (E A D G B E) - 'Untitled'

 

 

 G                 G                 Gadd9

4/4

 Gtr I

 E E E E E E E E   E E E E E E E E   E E E E E E E E

|-----------------|-----------------|-----------------|

|---0-----0-----0-|---0-----0-----0-|---0-----0-----0-|

|-----0-----0-----|-----0-----0-----|-----2-----2-----|

|-------0-----0---|-------0-----0---|-------0-----0---|

|-----------------|-----------------|-----------------|

|-3---------------|-3---------------|-3---------------|

 

 

 Bm7/F             Bm7/F

 E E E E E E E E   E E E E E E E E

|-----------------|------------------|

|---0-----0-----0-|---0-----0-----0--|

|-----2-----2-----|-----2-----2------|

|-------0-----0---|-------0-----0----|

|-----------------|------------------|

|-1---------------|-1----------------|

 

 

 G                 Gadd9             Bm7/F             Bm7/F

 E E E E E E E E   E E E E E E E E   E E E E E E E E   E E E E E E E E

|-----------------|-----------------|-----------------|-----------------|

|---0-----0-----0-|---0-----0-----0-|---0-----0-----0-|---0-----0-----0-|

|-----0-----0-----|-----2-----2-----|-----2-----2-----|-----2-----2-----|

|-------0-----0---|-------0-----0---|-------0-----0---|-------0-----0---|

|-----------------|-----------------|-----------------|-----------------|

|-3---------------|-3---------------|-1---------------|-1---------------|

 

 

 G                 Gadd9             C                 D

 E E E E E E E E   E E E E E E E E   E E E E E E E E   E E E E E E E E

|-----------------|-----------------|-----------------|---2-----2-----2-|

|---0-----0-----0-|---0-----0-----0-|---1-----1-----1-|-----3-----3-----|

|-----0-----0-----|-----2-----2-----|-----0-----0-----|-------2-----2---|

|-------0-----0---|-------0-----0---|-------2-----2---|-0---------------|

|-----------------|-----------------|-3---------------|-----------------|

|-3---------------|-3---------------|-----------------|-----------------|

 

 

 Em7               C                 G                 G

 E E E E E E E E   E E E E E E E E   E E E E E E E E   E E E E E E E E

|-----------------|-----------------|-----------------|-----------------|

|---0-----0-----0-|---1-----1-----1-|---0-----0-----0-|---1-----1-----1-|

|-----0-----0-----|-----0-----0-----|-----0-----0-----|-----0-----0-----|

|-------2-----2---|-------2-----2---|-------0-----0---|-------2-----2---|

|-----------------|-3---------------|-----------------|-3---------------|

|-0---------------|-----------------|-3---------------|-----------------|

 

 

 G                 Am7               D7                G

 E E E E E E E E   E E E E E E E E   E E E E E E E E   E E E E E E E E

|-----------------|-----------------|---2-----2-----2-|-----------------|

|---0-----0-----0-|---1-----1-----1-|-----1-----1-----|---0-----0-----0-|

|-----0-----0-----|-----0-----0-----|-------2-----2---|-----0-----0-----|

|-------0-----0---|-------2-----2---|-0---------------|-------0-----0---|

|-2---------------|-0---------------|-----------------|-----------------|

|-----------------|-----------------|-----------------|-3---------------|

 

 

 Gadd9             G

 E E E E E E E E   E E E E E E E E

|-----------------|-----------------|

|---0-----0-----0-|---0-----0-----0-|

|-----2-----2-----|-----0-----0-----|

|-------0-----0---|-------0-----0---|

|-----------------|-----------------|

|-3---------------|-3---------------|

Buy Now (£5.00)

If You Could Read My Mind Love (Gordon Lightfoot) guitar tab

The four files are provided in a zipped format.

1. A tab html file.

2. A tab doc file.

3. A .ptb powertab midi file - Powertab software can be downloaded from the introductory Guitar Tab page.

4. A .pdf file which is read in Adobe reader software and shows both tab, notation and the lyrics.

 

Please click on the orange button 'Buy Now' Paypal link alongside & on completion of payment in GB Pound Sterling (£), you will be given an automated download instruction. For more than one song just continue clicking the 'Buy Now' buttons and they are added to the Cart before final purchase.

View Cart

Demo of Powertab only shown below - I have not uploaded the 'If You Could Read My Mind Love'

powertab video yet on to you tube

If You Could Read Mind websample