Acoustic Guitar  and Mandolin Teacher in Buckinghamshire

Ian Entwistle

#----------------------------------PLEASE NOTE---------------------------------#

#This file is the author's own work and represents their interpretation of the #

#song. You may only use this file for private study, scholarship, or research. #

#------------------------------------------------------------------------------#

FATHER & SON

Transcribed by Ian Entwistle

Level: Intermediate

Written by Cat Stevens

 

G

3 2 0 0 0 3 D/F#

x x 4 2 3 2 D/F#open(type 2)

2 0 0 2 3 2 D/F#open

2 0 0 2 3 2

Bm

x 2 4 4 3 2 C(type 2)

x 3 2 0 1 3 C/E

0 3 2 0 1 0 Am

x 0 2 2 1 0

Em

0 2 2 0 0 0 D

x x 0 2 3 2 Am7

x 0 2 0 1 0 Am7(type 2)

x 0 2 2 1 3

 

Gtr I (E A D G B E) - 'Capo 0'

 

 

 G        C(type 2)             G        C(type 2)

4/4

 Gtr I

 Q  E E E  Q.     E Q  E H      Q  E E E  Q.     E Q  E H

|-3------3-------|---3----5----|-3------3-------|---3----5----|

|-0------0h=1----|-1-----------|-0------0h=1----|-1-----------|

|-0----0---------|------5------|-0----0---------|------5------|

|-0--0-----h2----|-------------|-0--0-----h2----|-------------|

|----------------|-------------|----------------|-------------|

|-3------3-------|-------------|-3------3-------|-------------|

 

 

 G        C(type 2)             G        C(type 2)

 Q  E E E  Q.     E Q  E H      Q  E E E  Q.     W

|-3------3-------|---3----5----|-3------3-------|------|

|-0------0h=1----|-1-----------|-0------0h=1----|------|

|-0----0---------|------5------|-0----0---------|------|

|-0--0-----h2----|-------------|-0--0-----h2----|------|

|----------------|-------------|----------------|------|

|-3------3-------|-------------|-3------3-------|------|

 

 

 G             D/F#          C/E           Am7

 Q  Q  Q  Q    Q  Q  Q  Q    Q  Q  Q  Q    Q  Q  Q  Q

|-3-----3-----|-2-----2-----|-0-----0-----|-0-----0------|

|-0-----0-----|-3-----3-----|-1-----1-----|-1-----1------|

|----0-----0--|----2-----2--|----0-----0--|----0-----0---|

|-------------|-4-----4-----|-------------|--------------|

|-------------|-------------|-3-----3-----|-0-----0------|

|-3-----3-----|-------------|-------------|--------------|

 

 

 G             Em            Am       Am7(tDpe 2)

 Q  Q  Q  Q    Q  Q  Q  Q    Q  Q  Q  Q    Q  Q  Q  Q

|-3-----3-----|-0-----0-----|-0-----0--3--|-2-----2------|

|-0-----0-----|-0-----0-----|-1-----1--1--|-3-----3------|

|----0-----0--|----0-----0--|----2--------|----2-----2---|

|-------------|-------------|-------------|-0-----0------|

|-------------|-------------|-0-----0-----|--------------|

|-3-----3-----|-0-----0-----|-------------|--------------|

 

 

 G             D/F#          C/E           Am7

 Q  Q  Q  Q    Q  Q  Q  Q    Q  Q  Q  Q    Q  Q  Q  Q

|-3-----3-----|-2-----2-----|-0-----0-----|-0-----0------|

|-0-----0-----|-3-----3-----|-1-----1-----|-1-----1------|

|----0-----0--|----2-----2--|----0-----0--|----0-----0---|

|-------------|-4-----4-----|-------------|--------------|

|-------------|-------------|-3-----3-----|-0-----0------|

|-3-----3-----|-------------|-------------|--------------|

Buy Now (£5.00)

Father And Son (Cat Stevens) guitar tab

The four files are provided in a zipped format.

1. A tab html file.

2. A tab doc file.

3. A .ptb powertab midi file - Powertab software can be downloaded from the introductory Guitar Tab page.

4. A .pdf file which is read in Adobe reader software and shows both tab, notation and the lyrics.

 

Please click on the orange button 'Buy Now' Paypal link alongside & on completion of payment in GB Pound Sterling (£), you will be given an automated download instruction. For more than one song just continue clicking the 'Buy Now' buttons and they are added to the Cart before final purchase.

View Cart Father&Son websample