Acoustic Guitar  and Mandolin Teacher in Buckinghamshire

Ian Entwistle

#----------------------------------PLEASE NOTE---------------------------------#

#This file is the author's own work and represents their interpretation of the #

#song. You may only use this file for private study, scholarship, or research. #

#------------------------------------------------------------------------------#

EVERY TIME WE SAY GOODBYE

Transcribed by Ian Entwistle

 

Level: Advanced

Written by Cole Porter

 

Aadd9

x 0 2 4 2 0A

x 0 2 2 2 0Asus2

x 0 2 2 0 0Amaj7

x 0 2 1 2 0

Bm7

x 2 4 2 3 2Bm7/E

0 2 4 2 3 2E

0 2 2 1 0 0C

x 3 5 5 5 x

Dm

x 5 7 7 6 5F#°7

x x 4 5 4 5G

3 2 0 0 0 3Dmaj7

x x 0 2 2 2

A°7

x x 7 8 7 8G9

x x 5 4 6 5C#m7

x 4 6 4 5 4Cm7

x 3 5 3 4 3

Amaj7(type 2)

x 0 2 2 2 4

 

Gtr I (E A D G B E) - 'No Capo'

 

 Q.=70

 Aadd9       A             Bm7         Bm7/E

12/8

 Gtr I

 E E E E E E E E E E E E   E E E E E E E E E E E E

|-------0-----------0-----|-------2-----------2-----|

|-------2-----------2-----|-------3-----------3-----|

|-----4---4-------2---2---|-----2---2-------2---2---|

|---2-------2---2---------|---4-------4---4-------4-|

|-0-----------0---------0-|-2-----------------------|

|-------------------------|-------------0-----------|

 

 

 Aadd9       A             Bm7         Bm7/E

 E E E E E E E E E E E E   E E E E E E E E E E E E

|-------0-----------0-----|-------2-----------2-----|

|-------2-----------2-----|-------3-----------3-----|

|-----4---4-------2---2---|-----2---2-------2---2---|

|---2-------2---2---------|---4-------4---4-------4-|

|-0-----------0---------0-|-2-----------------------|

|-------------------------|-------------0-----------|

 

 

 $

 Aadd9       A             Asus2       Amaj7

 E E E E E E E E E E E E   E E E E E E E E E E E E

|-------0-----------0-----|-------0-----------0-----|

|-------2-----------2-----|-------0-----------2-----|

|-----4---4-------2---2---|-----2---2-------1---1---|

|---2-------2---2-------2-|---2-------2---2-------2-|

|-0-----------0-----------|-0-----------0-----------|

|-------------------------|-------------------------|

 

 

 Asus2       Amaj7         Bm7/E       E

 E E E E E E E E E E E E   E E E E E E E E E E E E

|-------0-----------0-----|-------2-----------0-------|

|-------0-----------2-----|-------3-----------0-------|

|-----2---2-------1---1---|-----2---2-------1---1-----|

|---2-------2---2-------2-|---4-------4---2-------2---|

|-0-----------0-----------|-2-------------------------|

|-------------------------|-------------0-------------|

 

 

 A           Bm7           C           Bm7

 E E E E E E E E E E E E   E E E E E E E E E E E E

|-------0-----------2-----|-------------------------|

|-------2-----------3-----|-------5-----------3-----|

|-----2---2-------2---2---|-----5---5-------2---2---|

|---2-----------4---------|---5-----------4-------4-|

|-0---------0-2---------0-|-3---------0-2-----------|

|-------------------------|-------------------------|

 

 

 A                         Dm

 E E E E E E E E E E E E   E E E E E E E E E E E E

|-------0-----------0-----|-------5-----------5-------|

|-------2-----------2-----|-------6-----------6-------|

|-----2---2-------2---2---|-----7---7-------7---7-----|

|---2-------2---2-------2-|---7-------7---7-------7---|

|-0-----------0-----------|-5-----------5-------------|

|-------------------------|---------------------------|

 

 

 A           F#°7          Bm7         E

 E E E E E E E E E E E E   E E E E E E E E E E E E

|-------0-----------5-----|-------2-----------0-----|

|-------2---------4---4---|-------3-----------0-----|

|-----2---2-----5---------|-----2---2-------1---1---|

|---2-------2-4-----------|---4-------4---2---------|

|-0---------------------0-|-2-----------------------|

|-------------------------|-------------0---------2-|

Buy Now (£5.00)

Every Time We Say Goodbye (Cole Porter) guitar tab

The four files are provided in a zipped format.

1. A tab html file.

2. A tab doc file.

3. A .ptb powertab midi file - Powertab software can be downloaded from the introductory Guitar Tab page.

4. A .pdf file which is read in Adobe reader software and shows both tab, notation and the lyrics.

 

Please click on the orange button 'Buy Now' Paypal link alongside & on completion of payment in GB Pound Sterling (£), you will be given an automated download instruction. For more than one song just continue clicking the 'Buy Now' buttons and they are added to the Cart before final purchase.

View Cart Every Time We Say Goodbye websample