Acoustic Guitar  and Mandolin Teacher in Buckinghamshire

Ian Entwistle

Buy Now (£5.00)

file is the author's own work and represents their interpretation of the #

#song. You may only use this file for private study, scholarship, or research. #

#------------------------------------------------------------------------------#

DESPERADO

As recorded by The Eagles

(From the 1973 Album DESPERADO)

Transcribed by Ian Entwistle Words and Music by Henley/Frey

Arranged by Henley/Frey

 

D

x x 0 2 3 2 D/C

x 3 0 2 3 2 Gm6/Bb

x 1 2 0 3 3 G/B

x 2 0 0 3 3

E7

0 2 0 1 0 0 Bm

x 2 4 4 3 2 Bm/A

x 0 4 4 3 2 F#m7

2 x 2 2 2 2

A7

x 0 2 0 2 0 E

0 2 2 1 0 0 D/C#

x 4 0 2 3 2 A

x 0 2 2 2 0

A/C#

x 4 2 2 2 0 G

3 2 0 0 0 3 Bm7

x 2 4 2 3 2 A7sus4

x 0 2 0 3 0

Em7

0 2 2 0 3 0 G/F#

2 x 0 0 0 x G6/E

0 2 2 0 0 3

 

Gtr I (E A D G B E) - 'Untitled'

 Q=70

 D       D/C       G/B     Gm6/Bb    D       Bm        E7      A7

4/4                                                                   3/4

 Gtr I

 E E E E E E E E   E E E E E E E E   E E E E E E E E   E E E E  H      +H.

|-----2-------2---|-----3-------3---|-----2-----------|---------------|--------|

|-----3-------3---|-----3-------3---|-----3-------3---|-----0---^2----|-(2)----|

|---2---2---2---2-|---0---0---0---0-|---2---2-----4---|-----1---^0----|-(0)----|

|-0---------------|-------------2---|-0---------4---4-|---0---0-^2----|-(2)----|

|---------3-------|-2-------1-------|---------2-------|---------^0----|-(0)----|

|-----------------|-----------------|-----------------|-0-------------|--------|

 

 

 D       D/C       G/B     Gm6/Bb    D       Bm        E       A7

4/4

 E E E E E E E E   E E E E E E E E   E E E E E E E E   E E E E E E E E

|-----2-------2---|-----3-------3---|-----2-----------|-----------------|

|-----3-------3---|-----3-------3---|-----3-------3---|-----0-------2---|

|---2---2---2---2-|---0---0---0---0-|---2---2-----4---|-----1-------0---|

|-0---------------|-----------------|-0---------4---4-|---2---2---2---0-|

|---------3-------|-2-------1-------|---------2-------|---------0-------|

|-----------------|-----------------|-----------------|-0---------------|

 

 

 D       D/C       G/B     Gm6/Bb

 E E E E E E E E   E E E E E E E E

|-----2-------3---|-----3-------3---|

|-----3-------3---|-----3-------3---|

|---2---2---2---2-|---0---0---0---0-|

|-0---------------|-------------2---|

|---------3-------|-2-------1-------|

|-----------------|-----------------|

Desperado guitar tab

The four files are provided in a zipped format.

1. A tab html file.

2. A tab doc file.

3. A .ptb powertab midi file - Powertab software can be downloaded from the introductory Guitar Tab page.

4. A .pdf file which is read in Adobe reader software and shows both tab, notation and the lyrics.

 

Please click on the orange button 'Buy Now' Paypal link alongside & on completion of payment in GB Pound Sterling (£), you will be given an automated download instruction. For more than one song just continue clicking the 'Buy Now' buttons and they are added to the Cart before final purchase.

View Cart Desperdo websample